ISO-10303-21;
HEADER;
FILE_DESCRIPTION (( 'STEP AP203' ),
    '1' );
FILE_NAME ('BK7-LPBSC-12.7-473.STEP',
    '2020-12-22T03:11:34',
    ( '' ),
    ( '' ),
    'SwSTEP 2.0',
    'SolidWorks 2020',
    '' );
FILE_SCHEMA (( 'CONFIG_CONTROL_DESIGN' ));
ENDSEC;

DATA;
#1 = APPLICATION_PROTOCOL_DEFINITION ( 'international standard', 'config_control_design', 1994, #214 ) ;
#2 = ADVANCED_FACE ( 'NONE', ( #132 ), #213, .F. ) ;
#3 = ORIENTED_EDGE ( 'NONE', *, *, #237, .F. ) ;
#4 =( GEOMETRIC_REPRESENTATION_CONTEXT ( 3 ) GLOBAL_UNCERTAINTY_ASSIGNED_CONTEXT ( ( #258 ) ) GLOBAL_UNIT_ASSIGNED_CONTEXT ( ( #77, #124, #274 ) ) REPRESENTATION_CONTEXT ( 'NONE', 'WORKASPACE' ) );
#5 = DIRECTION ( 'NONE',  ( 0.000000000000000000, 1.000000000000000000, 0.000000000000000000 ) ) ;
#6 = FACE_OUTER_BOUND ( 'NONE', #121, .T. ) ;
#7 = DIRECTION ( 'NONE',  ( 0.000000000000000000, 0.000000000000000000, 1.000000000000000000 ) ) ;
#8 = ADVANCED_FACE ( 'NONE', ( #303 ), #188, .F. ) ;
#9 = APPROVAL_PERSON_ORGANIZATION ( #176, #57, #49 ) ;
#10 = APPROVAL_ROLE ( '' ) ;
#11 = ADVANCED_FACE ( 'NONE', ( #85 ), #254, .T. ) ;
#12 = DATE_AND_TIME ( #39, #66 ) ;
#13 = PERSON_AND_ORGANIZATION ( #191, #308 ) ;
#14 = AXIS2_PLACEMENT_3D ( 'NONE', #81, #316, #204 ) ;
#15 = DIRECTION ( 'NONE',  ( -0.000000000000000000, -0.000000000000000000, -1.000000000000000000 ) ) ;
#16 = VECTOR ( 'NONE', #249, 1000.000000000000000 ) ;
#17 = VERTEX_POINT ( 'NONE', #233 ) ;
#18 = FACE_OUTER_BOUND ( 'NONE', #317, .T. ) ;
#19 = COORDINATED_UNIVERSAL_TIME_OFFSET ( 8, 0, .AHEAD. ) ;
#20 = VECTOR ( 'NONE', #53, 1000.000000000000114 ) ;
#21 = ORIENTED_EDGE ( 'NONE', *, *, #168, .F. ) ;
#22 = LINE ( 'NONE', #120, #284 ) ;
#23 = ORIENTED_EDGE ( 'NONE', *, *, #281, .T. ) ;
#24 = DIRECTION ( 'NONE',  ( 1.000000000000000000, -2.903408047666378392E-16, 0.000000000000000000 ) ) ;
#25 = PLANE ( 'NONE',  #238 ) ;
#26 = EDGE_CURVE ( 'NONE', #98, #17, #252, .T. ) ;
#27 = EDGE_CURVE ( 'NONE', #32, #227, #300, .T. ) ;
#28 = COORDINATED_UNIVERSAL_TIME_OFFSET ( 8, 0, .AHEAD. ) ;
#29 = VECTOR ( 'NONE', #87, 1000.000000000000000 ) ;
#30 = EDGE_LOOP ( 'NONE', ( #119, #275, #116 ) ) ;
#31 = DIRECTION ( 'NONE',  ( -2.220446049250312588E-16, 1.000000000000000000, 0.000000000000000000 ) ) ;
#32 = VERTEX_POINT ( 'NONE', #59 ) ;
#33 = CARTESIAN_POINT ( 'NONE',  ( 6.349999999999996980, 6.349999999999996980, 6.349999999999999645 ) ) ;
#34 = DESIGN_CONTEXT ( 'detailed design', #214, 'design' ) ;
#35 = APPROVAL ( #40, 'UNSPECIFIED' ) ;
#36 = CARTESIAN_POINT ( 'NONE',  ( 6.349999999999996980, 6.349999999999996980, 6.349999999999999645 ) ) ;
#37 = ORIENTED_EDGE ( 'NONE', *, *, #281, .F. ) ;
#38 = CARTESIAN_POINT ( 'NONE',  ( 6.349999999999996980, 6.349999999999996980, -6.349999999999999645 ) ) ;
#39 = CALENDAR_DATE ( 2020, 22, 12 ) ;
#40 = APPROVAL_STATUS ( 'not_yet_approved' ) ;
#41 = LINE ( 'NONE', #286, #280 ) ;
#42 = PERSON_AND_ORGANIZATION ( #191, #308 ) ;
#43 = VECTOR ( 'NONE', #15, 1000.000000000000000 ) ;
#44 = PLANE ( 'NONE',  #164 ) ;
#45 = ADVANCED_FACE ( 'NONE', ( #6 ), #184, .F. ) ;
#46 = ORIENTED_EDGE ( 'NONE', *, *, #282, .F. ) ;
#47 = CARTESIAN_POINT ( 'NONE',  ( 6.349999999999998757, 6.349999999999998757, 6.349999999999999645 ) ) ;
#48 = LINE ( 'NONE', #226, #110 ) ;
#49 = APPROVAL_ROLE ( '' ) ;
#50 = CC_DESIGN_PERSON_AND_ORGANIZATION_ASSIGNMENT ( #293, #148, ( #84 ) ) ;
#51 = LINE ( 'NONE', #166, #16 ) ;
#52 = EDGE_LOOP ( 'NONE', ( #71, #294, #315, #174 ) ) ;
#53 = DIRECTION ( 'NONE',  ( -0.7071067811865474617, -0.7071067811865474617, 0.000000000000000000 ) ) ;
#54 = AXIS2_PLACEMENT_3D ( 'NONE', #134, #234, #276 ) ;
#55 = FACE_OUTER_BOUND ( 'NONE', #52, .T. ) ;
#56 = ADVANCED_BREP_SHAPE_REPRESENTATION ( 'BK7-LPBSC-12.7-473', ( #161, #163, #14 ), #4 ) ;
#57 = APPROVAL ( #272, 'UNSPECIFIED' ) ;
#58 = CARTESIAN_POINT ( 'NONE',  ( 0.000000000000000000, 0.000000000000000000, -6.349999999999999645 ) ) ;
#59 = CARTESIAN_POINT ( 'NONE',  ( 6.349999999999996980, 6.349999999999996980, 6.349999999999999645 ) ) ;
#60 = EDGE_LOOP ( 'NONE', ( #150, #201, #312 ) ) ;
#61 = FACE_OUTER_BOUND ( 'NONE', #245, .T. ) ;
#62 = AXIS2_PLACEMENT_3D ( 'NONE', #306, #5, #155 ) ;
#63 = ADVANCED_FACE ( 'NONE', ( #55 ), #232, .F. ) ;
#64 = DATE_AND_TIME ( #262, #97 ) ;
#65 = VECTOR ( 'NONE', #158, 999.9999999999998863 ) ;
#66 = LOCAL_TIME ( 11, 11, 34.00000000000000000, #140 ) ;
#67 = FACE_OUTER_BOUND ( 'NONE', #60, .T. ) ;
#68 = AXIS2_PLACEMENT_3D ( 'NONE', #58, #7, #209 ) ;
#69 = DIRECTION ( 'NONE',  ( 1.000000000000000000, 0.000000000000000000, 0.000000000000000000 ) ) ;
#70 = CALENDAR_DATE ( 2020, 22, 12 ) ;
#71 = ORIENTED_EDGE ( 'NONE', *, *, #114, .F. ) ;
#72 = DIRECTION ( 'NONE',  ( 0.000000000000000000, 0.000000000000000000, -1.000000000000000000 ) ) ;
#73 = APPROVAL_STATUS ( 'not_yet_approved' ) ;
#74 = PLANE ( 'NONE',  #165 ) ;
#75 = ORIENTED_EDGE ( 'NONE', *, *, #192, .F. ) ;
#76 = CARTESIAN_POINT ( 'NONE',  ( 6.349999999999998757, 6.349999999999998757, -6.349999999999999645 ) ) ;
#77 =( LENGTH_UNIT ( ) NAMED_UNIT ( * ) SI_UNIT ( .MILLI., .METRE. ) );
#78 = CC_DESIGN_PERSON_AND_ORGANIZATION_ASSIGNMENT ( #42, #240, ( #273 ) ) ;
#79 = VERTEX_POINT ( 'NONE', #107 ) ;
#80 = PLANE ( 'NONE',  #54 ) ;
#81 = CARTESIAN_POINT ( 'NONE',  ( 0.000000000000000000, 0.000000000000000000, 0.000000000000000000 ) ) ;
#82 = VERTEX_POINT ( 'NONE', #228 ) ;
#83 = DIRECTION ( 'NONE',  ( -0.7071067811865475727, 0.7071067811865475727, 0.000000000000000000 ) ) ;
#84 = PRODUCT ( 'BK7-LPBSC-12.7-473', 'BK7-LPBSC-12.7-473', '', ( #267 ) ) ;
#85 = FACE_OUTER_BOUND ( 'NONE', #30, .T. ) ;
#86 = CARTESIAN_POINT ( 'NONE',  ( 6.349999999999998757, 6.349999999999998757, 6.349999999999999645 ) ) ;
#87 = DIRECTION ( 'NONE',  ( 1.000000000000000000, -2.903408047666378392E-16, 0.000000000000000000 ) ) ;
#88 = LOCAL_TIME ( 11, 11, 34.00000000000000000, #28 ) ;
#89 = APPROVAL ( #73, 'UNSPECIFIED' ) ;
#90 = CLOSED_SHELL ( 'NONE', ( #63, #146, #45, #223, #8 ) ) ;
#91 = EDGE_CURVE ( 'NONE', #243, #32, #210, .T. ) ;
#92 = LINE ( 'NONE', #260, #229 ) ;
#93 = VECTOR ( 'NONE', #263, 1000.000000000000000 ) ;
#94 = ORIENTED_EDGE ( 'NONE', *, *, #222, .T. ) ;
#95 = LINE ( 'NONE', #172, #173 ) ;
#96 = DATE_TIME_ROLE ( 'creation_date' ) ;
#97 = LOCAL_TIME ( 11, 11, 34.00000000000000000, #142 ) ;
#98 = VERTEX_POINT ( 'NONE', #212 ) ;
#99 = CARTESIAN_POINT ( 'NONE',  ( 6.349999999999998757, 6.349999999999998757, -6.349999999999999645 ) ) ;
#100 = EDGE_LOOP ( 'NONE', ( #130, #143, #75 ) ) ;
#101 = DIRECTION ( 'NONE',  ( 6.829619984160658046E-17, -1.000000000000000000, 0.000000000000000000 ) ) ;
#102 = ORIENTED_EDGE ( 'NONE', *, *, #261, .F. ) ;
#103 = CARTESIAN_POINT ( 'NONE',  ( 0.000000000000000000, 0.000000000000000000, 6.349999999999999645 ) ) ;
#104 = CC_DESIGN_APPROVAL ( #35, ( #162 ) ) ;
#105 = ORIENTED_EDGE ( 'NONE', *, *, #292, .F. ) ;
#106 = CARTESIAN_POINT ( 'NONE',  ( 6.349999999999996980, 6.349999999999996980, 6.349999999999999645 ) ) ;
#107 = CARTESIAN_POINT ( 'NONE',  ( 6.349999999999999645, -6.350000000000000533, -6.349999999999999645 ) ) ;
#108 = ORIENTED_EDGE ( 'NONE', *, *, #222, .F. ) ;
#109 = DIRECTION ( 'NONE',  ( 0.7071067811865475727, 0.7071067811865475727, 0.000000000000000000 ) ) ;
#110 = VECTOR ( 'NONE', #202, 1000.000000000000000 ) ;
#111 = VECTOR ( 'NONE', #189, 999.9999999999998863 ) ;
#112 = PRODUCT_DEFINITION ( 'UNKNOWN', '', #273, #34 ) ;
#113 = APPROVAL_PERSON_ORGANIZATION ( #290, #89, #10 ) ;
#114 = EDGE_CURVE ( 'NONE', #227, #98, #156, .T. ) ;
#115 = CARTESIAN_POINT ( 'NONE',  ( -6.349999999999998757, -6.349999999999997868, 6.349999999999999645 ) ) ;
#116 = ORIENTED_EDGE ( 'NONE', *, *, #135, .T. ) ;
#117 = LINE ( 'NONE', #47, #43 ) ;
#118 = CALENDAR_DATE ( 2020, 22, 12 ) ;
#119 = ORIENTED_EDGE ( 'NONE', *, *, #168, .T. ) ;
#120 = CARTESIAN_POINT ( 'NONE',  ( -6.349999999999998757, -6.349999999999997868, 6.349999999999999645 ) ) ;
#121 = EDGE_LOOP ( 'NONE', ( #108, #102, #250, #211 ) ) ;
#122 = DIRECTION ( 'NONE',  ( 0.000000000000000000, 0.000000000000000000, 1.000000000000000000 ) ) ;
#123 = CC_DESIGN_PERSON_AND_ORGANIZATION_ASSIGNMENT ( #216, #235, ( #273 ) ) ;
#124 =( NAMED_UNIT ( * ) PLANE_ANGLE_UNIT ( ) SI_UNIT ( $, .RADIAN. ) );
#125 = ORIENTED_EDGE ( 'NONE', *, *, #305, .T. ) ;
#126 = CARTESIAN_POINT ( 'NONE',  ( -6.350000000000002309, 6.350000000000001421, 6.349999999999999645 ) ) ;
#127 = PERSON_AND_ORGANIZATION ( #191, #308 ) ;
#128 = EDGE_LOOP ( 'NONE', ( #125, #3, #105, #23 ) ) ;
#129 = CARTESIAN_POINT ( 'NONE',  ( -6.349999999999999645, -6.350000000000000533, 6.349999999999999645 ) ) ;
#130 = ORIENTED_EDGE ( 'NONE', *, *, #180, .F. ) ;
#131 = DIRECTION ( 'NONE',  ( -2.903408047666378392E-16, -1.000000000000000000, 0.000000000000000000 ) ) ;
#132 = FACE_OUTER_BOUND ( 'NONE', #128, .T. ) ;
#133 = CARTESIAN_POINT ( 'NONE',  ( -6.349999999999998757, -6.349999999999997868, -6.349999999999999645 ) ) ;
#134 = CARTESIAN_POINT ( 'NONE',  ( -6.349999999999998757, -6.349999999999997868, 6.349999999999999645 ) ) ;
#135 = EDGE_CURVE ( 'NONE', #225, #82, #278, .T. ) ;
#136 = CC_DESIGN_APPROVAL ( #89, ( #273 ) ) ;
#137 = DATE_AND_TIME ( #70, #199 ) ;
#138 = CC_DESIGN_PERSON_AND_ORGANIZATION_ASSIGNMENT ( #127, #242, ( #112 ) ) ;
#139 = DIRECTION ( 'NONE',  ( 0.000000000000000000, 0.000000000000000000, -1.000000000000000000 ) ) ;
#140 = COORDINATED_UNIVERSAL_TIME_OFFSET ( 8, 0, .AHEAD. ) ;
#141 = LINE ( 'NONE', #219, #302 ) ;
#142 = COORDINATED_UNIVERSAL_TIME_OFFSET ( 8, 0, .AHEAD. ) ;
#143 = ORIENTED_EDGE ( 'NONE', *, *, #91, .F. ) ;
#144 = DIRECTION ( 'NONE',  ( 1.000000000000000000, 0.000000000000000000, 0.000000000000000000 ) ) ;
#145 = VECTOR ( 'NONE', #24, 1000.000000000000000 ) ;
#146 = ADVANCED_FACE ( 'NONE', ( #61 ), #80, .F. ) ;
#147 = LINE ( 'NONE', #295, #93 ) ;
#148 = PERSON_AND_ORGANIZATION_ROLE ( 'design_owner' ) ;
#149 = CC_DESIGN_APPROVAL ( #57, ( #112 ) ) ;
#150 = ORIENTED_EDGE ( 'NONE', *, *, #298, .F. ) ;
#151 = CARTESIAN_POINT ( 'NONE',  ( 6.349999999999996980, 6.349999999999996980, -6.349999999999999645 ) ) ;
#152 = LINE ( 'NONE', #277, #20 ) ;
#153 = VERTEX_POINT ( 'NONE', #129 ) ;
#154 = CC_DESIGN_DATE_AND_TIME_ASSIGNMENT ( #12, #193, ( #162 ) ) ;
#155 = DIRECTION ( 'NONE',  ( 0.000000000000000000, -0.000000000000000000, 1.000000000000000000 ) ) ;
#156 = LINE ( 'NONE', #38, #111 ) ;
#157 = DIRECTION ( 'NONE',  ( -0.000000000000000000, 0.000000000000000000, 1.000000000000000000 ) ) ;
#158 = DIRECTION ( 'NONE',  ( -0.7071067811865475727, -0.7071067811865475727, 0.000000000000000000 ) ) ;
#159 = AXIS2_PLACEMENT_3D ( 'NONE', #106, #131, #181 ) ;
#160 = PERSON_AND_ORGANIZATION_ROLE ( 'classification_officer' ) ;
#161 = MANIFOLD_SOLID_BREP ( 'Í¹Ì¨-À', #311 ) ;
#162 = SECURITY_CLASSIFICATION ( '', '', #307 ) ;
#163 = MANIFOLD_SOLID_BREP ( '¾µÏ', #90 ) ;
#164 = AXIS2_PLACEMENT_3D ( 'NONE', #291, #270, #318 ) ;
#165 = AXIS2_PLACEMENT_3D ( 'NONE', #198, #239, #101 ) ;
#166 = CARTESIAN_POINT ( 'NONE',  ( 6.349999999999999645, -6.350000000000000533, 6.349999999999999645 ) ) ;
#167 = CARTESIAN_POINT ( 'NONE',  ( -6.349999999999999645, -6.350000000000000533, -6.349999999999999645 ) ) ;
#168 = EDGE_CURVE ( 'NONE', #82, #153, #152, .T. ) ;
#169 = PRODUCT_DEFINITION_SHAPE ( 'NONE', 'NONE',  #112 ) ;
#170 = SHAPE_DEFINITION_REPRESENTATION ( #169, #56 ) ;
#171 = ORIENTED_EDGE ( 'NONE', *, *, #304, .T. ) ;
#172 = CARTESIAN_POINT ( 'NONE',  ( -6.349999999999999645, -6.350000000000000533, 6.349999999999999645 ) ) ;
#173 = VECTOR ( 'NONE', #321, 1000.000000000000000 ) ;
#174 = ORIENTED_EDGE ( 'NONE', *, *, #205, .T. ) ;
#175 = DIRECTION ( 'NONE',  ( -0.000000000000000000, 0.000000000000000000, 1.000000000000000000 ) ) ;
#176 = PERSON_AND_ORGANIZATION ( #191, #308 ) ;
#177 = ORIENTED_EDGE ( 'NONE', *, *, #114, .T. ) ;
#178 = DIRECTION ( 'NONE',  ( -0.7071067811865474617, -0.7071067811865474617, 0.000000000000000000 ) ) ;
#179 = ORIENTED_EDGE ( 'NONE', *, *, #192, .T. ) ;
#180 = EDGE_CURVE ( 'NONE', #32, #248, #255, .T. ) ;
#181 = DIRECTION ( 'NONE',  ( -1.000000000000000000, 2.903408047666378392E-16, 0.000000000000000000 ) ) ;
#182 = CALENDAR_DATE ( 2020, 22, 12 ) ;
#183 = ORIENTED_EDGE ( 'NONE', *, *, #135, .F. ) ;
#184 = PLANE ( 'NONE',  #159 ) ;
#185 = CARTESIAN_POINT ( 'NONE',  ( 0.000000000000000000, 0.000000000000000000, 6.349999999999999645 ) ) ;
#186 = DIRECTION ( 'NONE',  ( -6.829619984160658046E-17, 1.000000000000000000, -0.000000000000000000 ) ) ;
#187 = LOCAL_TIME ( 11, 11, 34.00000000000000000, #19 ) ;
#188 = PLANE ( 'NONE',  #68 ) ;
#189 = DIRECTION ( 'NONE',  ( -0.7071067811865475727, -0.7071067811865475727, 0.000000000000000000 ) ) ;
#190 = CC_DESIGN_SECURITY_CLASSIFICATION ( #162, ( #273 ) ) ;
#191 = PERSON ( 'UNSPECIFIED', 'UNSPECIFIED', 'UNSPECIFIED', ('UNSPECIFIED'), ('UNSPECIFIED'), ('UNSPECIFIED') ) ;
#192 = EDGE_CURVE ( 'NONE', #248, #243, #147, .T. ) ;
#193 = DATE_TIME_ROLE ( 'classification_date' ) ;
#194 = VECTOR ( 'NONE', #186, 1000.000000000000000 ) ;
#195 = DIRECTION ( 'NONE',  ( -6.829619984160658046E-17, 1.000000000000000000, -0.000000000000000000 ) ) ;
#196 = APPROVAL_ROLE ( '' ) ;
#197 = ORIENTED_EDGE ( 'NONE', *, *, #261, .T. ) ;
#198 = CARTESIAN_POINT ( 'NONE',  ( 6.349999999999998757, 6.349999999999998757, 6.349999999999999645 ) ) ;
#199 = LOCAL_TIME ( 11, 11, 34.00000000000000000, #287 ) ;
#200 = ORIENTED_EDGE ( 'NONE', *, *, #298, .T. ) ;
#201 = ORIENTED_EDGE ( 'NONE', *, *, #304, .F. ) ;
#202 = DIRECTION ( 'NONE',  ( 1.000000000000000000, 0.000000000000000000, 0.000000000000000000 ) ) ;
#203 = AXIS2_PLACEMENT_3D ( 'NONE', #230, #83, #109 ) ;
#204 = DIRECTION ( 'NONE',  ( 1.000000000000000000, 0.000000000000000000, 0.000000000000000000 ) ) ;
#205 = EDGE_CURVE ( 'NONE', #248, #98, #22, .T. ) ;
#206 = ORIENTED_EDGE ( 'NONE', *, *, #205, .F. ) ;
#207 = CARTESIAN_POINT ( 'NONE',  ( 6.349999999999999645, -6.350000000000000533, 6.349999999999999645 ) ) ;
#208 = ORIENTED_EDGE ( 'NONE', *, *, #26, .T. ) ;
#209 = DIRECTION ( 'NONE',  ( -2.220446049250312588E-16, 1.000000000000000000, 0.000000000000000000 ) ) ;
#210 = LINE ( 'NONE', #251, #29 ) ;
#211 = ORIENTED_EDGE ( 'NONE', *, *, #27, .T. ) ;
#212 = CARTESIAN_POINT ( 'NONE',  ( -6.349999999999998757, -6.349999999999997868, -6.349999999999999645 ) ) ;
#213 = PLANE ( 'NONE',  #62 ) ;
#214 = APPLICATION_CONTEXT ( 'configuration controlled 3d designs of mechanical parts and assemblies' ) ;
#215 = LINE ( 'NONE', #76, #289 ) ;
#216 = PERSON_AND_ORGANIZATION ( #191, #308 ) ;
#217 = FACE_OUTER_BOUND ( 'NONE', #100, .T. ) ;
#218 = DATE_AND_TIME ( #118, #187 ) ;
#219 = CARTESIAN_POINT ( 'NONE',  ( -6.350000000000002309, 6.350000000000001421, 6.349999999999999645 ) ) ;
#220 = ORIENTED_EDGE ( 'NONE', *, *, #282, .T. ) ;
#221 = CARTESIAN_POINT ( 'NONE',  ( 6.349999999999996980, 6.349999999999996980, -6.349999999999999645 ) ) ;
#222 = EDGE_CURVE ( 'NONE', #17, #227, #246, .T. ) ;
#223 = ADVANCED_FACE ( 'NONE', ( #217 ), #266, .T. ) ;
#224 = DATE_AND_TIME ( #182, #88 ) ;
#225 = VERTEX_POINT ( 'NONE', #207 ) ;
#226 = CARTESIAN_POINT ( 'NONE',  ( -6.349999999999999645, -6.350000000000000533, 6.349999999999999645 ) ) ;
#227 = VERTEX_POINT ( 'NONE', #221 ) ;
#228 = CARTESIAN_POINT ( 'NONE',  ( 6.349999999999998757, 6.349999999999998757, 6.349999999999999645 ) ) ;
#229 = VECTOR ( 'NONE', #195, 1000.000000000000000 ) ;
#230 = CARTESIAN_POINT ( 'NONE',  ( 6.349999999999996980, 6.349999999999996980, 6.349999999999999645 ) ) ;
#231 = ORIENTED_EDGE ( 'NONE', *, *, #26, .F. ) ;
#232 = PLANE ( 'NONE',  #203 ) ;
#233 = CARTESIAN_POINT ( 'NONE',  ( -6.350000000000002309, 6.350000000000001421, -6.349999999999999645 ) ) ;
#234 = DIRECTION ( 'NONE',  ( 1.000000000000000000, -2.220446049250312588E-16, 0.000000000000000000 ) ) ;
#235 = PERSON_AND_ORGANIZATION_ROLE ( 'creator' ) ;
#236 = PRODUCT_RELATED_PRODUCT_CATEGORY ( 'detail', '', ( #84 ) ) ;
#237 = EDGE_CURVE ( 'NONE', #225, #79, #51, .T. ) ;
#238 = AXIS2_PLACEMENT_3D ( 'NONE', #314, #175, #144 ) ;
#239 = DIRECTION ( 'NONE',  ( -1.000000000000000000, -6.829619984160658046E-17, 0.000000000000000000 ) ) ;
#240 = PERSON_AND_ORGANIZATION_ROLE ( 'design_supplier' ) ;
#241 = DIRECTION ( 'NONE',  ( -2.220446049250312588E-16, 1.000000000000000000, 0.000000000000000000 ) ) ;
#242 = PERSON_AND_ORGANIZATION_ROLE ( 'creator' ) ;
#243 = VERTEX_POINT ( 'NONE', #126 ) ;
#244 = FACE_OUTER_BOUND ( 'NONE', #297, .T. ) ;
#245 = EDGE_LOOP ( 'NONE', ( #231, #206, #179, #197 ) ) ;
#246 = LINE ( 'NONE', #151, #145 ) ;
#247 = APPROVAL_PERSON_ORGANIZATION ( #310, #35, #196 ) ;
#248 = VERTEX_POINT ( 'NONE', #115 ) ;
#249 = DIRECTION ( 'NONE',  ( -0.000000000000000000, -0.000000000000000000, -1.000000000000000000 ) ) ;
#250 = ORIENTED_EDGE ( 'NONE', *, *, #91, .T. ) ;
#251 = CARTESIAN_POINT ( 'NONE',  ( 6.349999999999996980, 6.349999999999996980, 6.349999999999999645 ) ) ;
#252 = LINE ( 'NONE', #133, #259 ) ;
#253 = ADVANCED_FACE ( 'NONE', ( #244 ), #44, .F. ) ;
#254 = PLANE ( 'NONE',  #301 ) ;
#255 = LINE ( 'NONE', #36, #65 ) ;
#256 = DIRECTION ( 'NONE',  ( 1.000000000000000000, 0.000000000000000000, 0.000000000000000000 ) ) ;
#257 = APPROVAL_DATE_TIME ( #64, #35 ) ;
#258 = UNCERTAINTY_MEASURE_WITH_UNIT (LENGTH_MEASURE( 1.000000000000000082E-05 ), #77, 'distance_accuracy_value', 'NONE');
#259 = VECTOR ( 'NONE', #31, 1000.000000000000000 ) ;
#260 = CARTESIAN_POINT ( 'NONE',  ( 6.349999999999998757, 6.349999999999998757, -6.349999999999999645 ) ) ;
#261 = EDGE_CURVE ( 'NONE', #243, #17, #141, .T. ) ;
#262 = CALENDAR_DATE ( 2020, 22, 12 ) ;
#263 = DIRECTION ( 'NONE',  ( -2.220446049250312588E-16, 1.000000000000000000, 0.000000000000000000 ) ) ;
#264 = APPROVAL_DATE_TIME ( #137, #89 ) ;
#265 = VERTEX_POINT ( 'NONE', #99 ) ;
#266 = PLANE ( 'NONE',  #283 ) ;
#267 = MECHANICAL_CONTEXT ( 'NONE', #279, 'mechanical' ) ;
#268 = VECTOR ( 'NONE', #299, 1000.000000000000000 ) ;
#269 = EDGE_LOOP ( 'NONE', ( #177, #208, #94 ) ) ;
#270 = DIRECTION ( 'NONE',  ( 0.7071067811865475727, -0.7071067811865475727, 0.000000000000000000 ) ) ;
#271 = ADVANCED_FACE ( 'NONE', ( #18 ), #74, .F. ) ;
#272 = APPROVAL_STATUS ( 'not_yet_approved' ) ;
#273 = PRODUCT_DEFINITION_FORMATION_WITH_SPECIFIED_SOURCE ( 'ANY', '', #84, .NOT_KNOWN. ) ;
#274 =( NAMED_UNIT ( * ) SI_UNIT ( $, .STERADIAN. ) SOLID_ANGLE_UNIT ( ) );
#275 = ORIENTED_EDGE ( 'NONE', *, *, #292, .T. ) ;
#276 = DIRECTION ( 'NONE',  ( 0.000000000000000000, 0.000000000000000000, 1.000000000000000000 ) ) ;
#277 = CARTESIAN_POINT ( 'NONE',  ( 6.349999999999998757, 6.349999999999998757, 6.349999999999999645 ) ) ;
#278 = LINE ( 'NONE', #86, #194 ) ;
#279 = APPLICATION_CONTEXT ( 'configuration controlled 3d designs of mechanical parts and assemblies' ) ;
#280 = VECTOR ( 'NONE', #69, 1000.000000000000000 ) ;
#281 = EDGE_CURVE ( 'NONE', #153, #320, #95, .T. ) ;
#282 = EDGE_CURVE ( 'NONE', #82, #265, #117, .T. ) ;
#283 = AXIS2_PLACEMENT_3D ( 'NONE', #103, #122, #241 ) ;
#284 = VECTOR ( 'NONE', #139, 1000.000000000000000 ) ;
#285 = ADVANCED_FACE ( 'NONE', ( #67 ), #25, .F. ) ;
#286 = CARTESIAN_POINT ( 'NONE',  ( -6.349999999999999645, -6.350000000000000533, -6.349999999999999645 ) ) ;
#287 = COORDINATED_UNIVERSAL_TIME_OFFSET ( 8, 0, .AHEAD. ) ;
#288 = ORIENTED_EDGE ( 'NONE', *, *, #237, .T. ) ;
#289 = VECTOR ( 'NONE', #178, 1000.000000000000114 ) ;
#290 = PERSON_AND_ORGANIZATION ( #191, #308 ) ;
#291 = CARTESIAN_POINT ( 'NONE',  ( 6.349999999999998757, 6.349999999999998757, 6.349999999999999645 ) ) ;
#292 = EDGE_CURVE ( 'NONE', #153, #225, #48, .T. ) ;
#293 = PERSON_AND_ORGANIZATION ( #191, #308 ) ;
#294 = ORIENTED_EDGE ( 'NONE', *, *, #27, .F. ) ;
#295 = CARTESIAN_POINT ( 'NONE',  ( -6.349999999999998757, -6.349999999999997868, 6.349999999999999645 ) ) ;
#296 = APPLICATION_PROTOCOL_DEFINITION ( 'international standard', 'config_control_design', 1994, #279 ) ;
#297 = EDGE_LOOP ( 'NONE', ( #200, #37, #21, #220 ) ) ;
#298 = EDGE_CURVE ( 'NONE', #265, #320, #215, .T. ) ;
#299 = DIRECTION ( 'NONE',  ( 0.000000000000000000, 0.000000000000000000, -1.000000000000000000 ) ) ;
#300 = LINE ( 'NONE', #33, #268 ) ;
#301 = AXIS2_PLACEMENT_3D ( 'NONE', #185, #157, #256 ) ;
#302 = VECTOR ( 'NONE', #72, 1000.000000000000000 ) ;
#303 = FACE_OUTER_BOUND ( 'NONE', #269, .T. ) ;
#304 = EDGE_CURVE ( 'NONE', #79, #265, #92, .T. ) ;
#305 = EDGE_CURVE ( 'NONE', #320, #79, #41, .T. ) ;
#306 = CARTESIAN_POINT ( 'NONE',  ( -6.349999999999999645, -6.350000000000000533, 6.349999999999999645 ) ) ;
#307 = SECURITY_CLASSIFICATION_LEVEL ( 'unclassified' ) ;
#308 = ORGANIZATION ( 'UNSPECIFIED', 'UNSPECIFIED', '' ) ;
#309 = CC_DESIGN_PERSON_AND_ORGANIZATION_ASSIGNMENT ( #13, #160, ( #162 ) ) ;
#310 = PERSON_AND_ORGANIZATION ( #191, #308 ) ;
#311 = CLOSED_SHELL ( 'NONE', ( #253, #2, #271, #11, #285 ) ) ;
#312 = ORIENTED_EDGE ( 'NONE', *, *, #305, .F. ) ;
#313 = CC_DESIGN_DATE_AND_TIME_ASSIGNMENT ( #218, #96, ( #112 ) ) ;
#314 = CARTESIAN_POINT ( 'NONE',  ( 0.000000000000000000, 0.000000000000000000, -6.349999999999999645 ) ) ;
#315 = ORIENTED_EDGE ( 'NONE', *, *, #180, .T. ) ;
#316 = DIRECTION ( 'NONE',  ( 0.000000000000000000, 0.000000000000000000, 1.000000000000000000 ) ) ;
#317 = EDGE_LOOP ( 'NONE', ( #171, #46, #183, #288 ) ) ;
#318 = DIRECTION ( 'NONE',  ( 0.7071067811865474617, 0.7071067811865474617, 0.000000000000000000 ) ) ;
#319 = APPROVAL_DATE_TIME ( #224, #57 ) ;
#320 = VERTEX_POINT ( 'NONE', #167 ) ;
#321 = DIRECTION ( 'NONE',  ( -0.000000000000000000, -0.000000000000000000, -1.000000000000000000 ) ) ;
ENDSEC;
END-ISO-10303-21;
